Pregled posta

Adresa bloga: http://blog.dnevnik.hr/lakeofire666

Marketing

AKORDI:

U narednim ću postovima objavljivat akorde rock,punk,metal...grupa i izvođača pa vi u komovima
napišite gupu/pijesmu og koje želite akorde.

NIRVANA-POLLY
intro:

e|-----------------------------------------
B|-----------------------------------------
G|---------------7-7-5--5------------------
D|-2-x--5-5-x-x--7-7-5--5------------------
A|-2-x--5-5-x-x--5-5-3--3------------------
E|-0-x--3-3-x-x----------------------------

chorus:

e|-----------------------------------------
B|-----------------------------------------
G|-7-x--5-5-5-5----------------------------
D|-7-x--5-5-5-5--5-x--8-8-8-8--------------
A|-5-x--3-3-3-3--5-x--8-8-8-8--------------
E|---------------3-x--6-6-6-6--------------

interlude:

e|-----------------------------------------
B|-----------------------------------------
G|-----------------------------------------
D|----------0-0-0--------------------------
A|----------------3-3-3--------------------
E|-0--3-3-3--------------------------------

AZRA-A ŠTA DA RADIM

intro : Hm Em Hm

Hm
A sta da radim
G A Hm
kad odu prijatelji moji
G F# E G F# Hm
kad ode djevojka na koju bacam oci

(ovaj dio bolje zvuci kada sviras Em i Hm na sedmom pragu)

Em Hm
I tako redom dan za danom
Em Hm
na javnim mjestima s gitarom
Em Hm
naravno da uvijek netko dodje
F# Hm
da me cuje makar i kradom Solo:(h, a, g,)

F# Hm
Nista mi vise nije vazno
A D
Nasao sam dobar bend
Em Hm
Zelim samo da sviram
F# Hm
Da se otkacim i to je sve

A sta da radim
kad odu prijatelji moji
kad ode djevojka na koju bacam oci

Em Hm
Ljudi samo govore
Em Hm
zasto si nervozan
Em Hm
ljudi samo pricaju
Em Hm
ne budi tako grozan
Em Hm
ljudske usne sapuc'u
Em Hm
sunjaj se ti kradom
Em Hm
izbjegavaj nevolje
F# Hm
skinut c'e ti glavu

SOLO:
e|-x12--9--x12--7-------------------------|-x12--9--x12--7------------------------|
H|-x12-----x12-----7--7--7--^7--~7--------|-x12-----x12-----7--------^7--12-------|
G|-x12-----x12----------------------~7----|-x12-----x12--------9--7----------9----|
D|--------------------------------------9-|-------------------------------------9-|
A|----------------------------------------|---------------------------------------|
E|----------------------------------------|---------------------------------------|

e|-7--------10--7-------------------------|-7--------10--7------------------------|
H|----8------------7h-8p-7-----7----------|----8------------7h-8p-7-----7--7/12---|
G|-------9------------------9-----7-------|-------9------------------9------------|
D|-----------------------------------9--9-|---------------------------------------|
A|----------------------------------------|---------------------------------------|
E|----------------------------------------|---------------------------------------|

e|--7--------10--7--------------------------|
H|-----8------------7h-8p-7-----7-----------|
G|--------9------------------9-----7--------|
D|------------------------------------9--9--|
A|------------------------------------------|
E|------------------------------------------|

e|-----------------------------------------------------------------|
H|-----------^^7-----7---------------------------------------------|
G|-----7--9-------9-----9--~7--------------------------------------|
D|--9--------------------------9--x9--9--7--7--7-------------------|
A|------------------------------------------------10--9--7---------|
E|----------------------------------------------------------

RAMONES-ROCK N ROLL HIGH SCHOOL

e---------------------------------------------------------------------------|
B---------------------------------------------------------------------------|
G----------------------5-5-5-5-5-5-5-5-5-5-5-5-5-5-5-5----------------------|
D--5-5-5-5--5-5-5-5----5-5-5-5-5-5-5-5-5-5-5-5-5-5-5-5----------------------|
A--5-5-5-5--5-5-5-5----3-3-3-3-3-3-3-3-3-3-3-3-3-3-3-3----------------------|
E--2/3-3-3--2/3-3-3---------------------------------------------------------|
Well I don't care about history

e---------------------------------------------------------------------------|
B---------------------------------------------------------------------------|
G-5-5-5-5-5-5-5-5-5-5-5-5-5-5-5-5-5-5---------------------------------------|
D-5-5-5-5-5-5-5-5-5-5-5-5-5-5-5-5-5-5---3-3-3-3-3-3-3-3-3-3-3-3-3-3-3-3-3-3-|
A-3-3-3-3-3-3-3-3-3-3-3-3-3-3-3-3-3-3---3-3-3-3-3-3-3-3-3-3-3-3-3-3-3-3-3-3-|
E---------------------------------------1-1-1-1-1-1-1-1-1-1-1-1-1-1-1-1-1-1-|
Rock Rock rock 'n roll high school Cuz that's not where I wanna be


e---------------------------------------------------------------------------|
B---------------------------------------------------------------------------|
G-5-5-5-5-5-5-5-5-5-5-5-5-5-5-5-5-5-5----2-2-2-2-2-2-2-2--------------------|
D-5-5-5-5-5-5-5-5-5-5-5-5-5-5-5-5-5-5----2-2-2-2-2-2-2-2-3-3-3-3-3-3-3-3----|
A-3-3-3-3-3-3-3-3-3-3-3-3-3-3-3-3-3-3----0-0-0-0-0-0-0-0-3-3-3-3-3-3-3-3----|
E--------------------------------------------------------1-1-1-1-1-1-1-1----|
Rock Rock rock 'n roll high school I just wanna have some kicks


e---------------------------------------------------------------------------|
B---------------------------------------------------------------------------|
G-2-2-2-2-2-2-2-2-----------------------5---5-------------------------------|
D-2-2-2-2-2-2-2-2-3-3-3-3-3-3-3-3-3-----5---5-----7----7-----3-3-3-3-3-3----|
A-0-0-0-0-0-0-0-0-3-3-3-3-3-3-3-3-3-----3---3-----7----7-----3-3-3-3-3-3----|
E-----------------1-1-1-1-1-1-1-1-1---------------5----5-----1-1-1-1-1-1----|
I just wanna get some chicks rock rock rock rock rock 'n roll

e---------------------------------------------------------------------------|
B---------------------------------------------------------------------------|
G---------------------------------------------------------------------------|
D-5-5-5-5-5-5-5-5-5-5-5-5-5-5-5-5-5-5-5-5-----------------------------------|
A-5-5-5-5-5-5-5-5-5-5-5-5-5-5-5-5-5-5-5-5-----------------------------------|
E-3-3-3-3-3-3-3-3-3-3-3-3-3-3-3-3-3-3-3-3-----------------------------------|
high school

e---------------------------------------------------------------------------|
B---------------------------------------------------------------------------|
G-5-5-5-5-5-5-5-5-5-5-5-5-5-5-5-5-5-5-5-5-5-5-5-5-5-5-5-5-------------------|
D-5-5-5-5-5-5-5-5-5-5-5-5-5-5-5-5-5-5-5-5-5-5-5-5-5-5-5-5-------------------|
A-3-3-3-3-3-3-3-3-3-3-3-3-3-3-3-3-3-3-3-3-3-3-3-3-3-3-3-3-------------------|
E---------------------------------------------------------------------------|
Well the girls out there knock me out you know

e---------------------------------------------------------------------------|
B---------------------------------------------------------------------------|
G-5-5-5-5-5-5-5-5-5-5-5-5-5-5-5-5-5-5---------------------------------------|
D-5-5-5-5-5-5-5-5-5-5-5-5-5-5-5-5-5-5---3-3-3-3-3-3-3-3-3-3-3-3-3-3-3-3-3-3-|
A-3-3-3-3-3-3-3-3-3-3-3-3-3-3-3-3-3-3---3-3-3-3-3-3-3-3-3-3-3-3-3-3-3-3-3-3-|
E---------------------------------------1-1-1-1-1-1-1-1-1-1-1-1-1-1-1-1-1-1-|
Rock Rock rock 'n roll high school Cruisin around in my GTO

e---------------------------------------------------------------------------|
B---------------------------------------------------------------------------|
G-5-5-5-5-5-5-5-5-5-5-5-5-5-5-5-5-5-5--2-2-2-2-2-2-2-2-2-2-2-2-2------------|
D-5-5-5-5-5-5-5-5-5-5-5-5-5-5-5-5-5-5--2-2-2-2-2-2-2-2-2-2-2-2-2--3-3-3-3-3-|
A-3-3-3-3-3-3-3-3-3-3-3-3-3-3-3-3-3-3--0-0-0-0-0-0-0-0-0-0-0-0-0--3-3-3-3-3-|
E-----------------------------------------------------------------1-1-1-1-1-|
Rock Rock rock 'n roll high school I hate the teachers and the principal

e---------------------------------------------------------------------------|
B---------------------------------------------------------------------------|
G-2-2-2-2-2-2-2-2-2-2-2-2---------------------------------------------------|
D-2-2-2-2-2-2-2-2-2-2-2-2--3-3-3-3-3-3-3------------------------------------|
A-0-0-0-0-0-0-0-0-0-0-0-0--3-3-3-3-3-3-3------------------------------------|
E--------------------------1-1-1-1-1-1-1------------------------------------|
Don't wanna be taught to be no fool

e---------------------------------------------------------------------------|
B---------------------------------------------------------------------------|
G-5----5--------------------------------------------------------------------|
D-5----5-----7----7-----3--3--3--3---5-5-5-5-5-5----------------------------|
A-3----3-----7----7-----3--3--3--3---5-5-5-5-5-5-----(2X)-------------------|
E------------5----5-----1--1--1--1---3-3-3-3-3-3----------------------------|
rock rock rock rock rock 'n roll high school

e------------------------|
B------------------------|
G-5-5-5-5-5--5-5-5-5-5---|
D-5-5-5-5-5--5-5-5-5-5---|
A-2/3-3-3-3--2/3-3-3-3---|
E------------------------|


e---------------------------------------------------------------------------|
B---------------------------------------------------------------------------|
G-----------------------------------5-5-5-5-5-5-5-5-5-5-5-5-5-5-5-5-5-5-5---|
D-5-5-5-5-5-5-5-5-5-5-5-5-5-5-5-5-5-5-5-5-5-5-5-5-5-5-5-5-5-5-5-5-5-5-5-5---|
A-5-5-5-5-5-5-5-5-5-5-5-5-5-5-5-5-5-3-3-3-3-3-3-3-3-3-3-3-3-3-3-3-3-3-3-3---|
E-3-3-3-3-3-3-3-3-3-3-3-3-3-3-3-3-3-----------------------------------------|
Fun Fun rock 'n roll high school Fun Fun rock 'n roll high school

e---------------------------------------------------------------------------|
B---------------------------------------------------------------------------|
G-----------------------------------5-5-5-5-5-5-5-5-5-5-5-------------------|
D-5-5-5-5-5-5-5-5-5-5-5-5-5-5-5-5-5-5-5-5-5-5-5-5-5-5-5-5-3-3-3-3-3-3-3-3-3-|
A-5-5-5-5-5-5-5-5-5-5-5-5-5-5-5-5-5-3-3-3-3-3-3-3-3-3-3-3-3-3-3-3-3-3-3-3-3-|
E-3-3-3-3-3-3-3-3-3-3-3-3-3-3-3-3-3-----------------------1-1-1-1-1-1-1-1-1-|
Fun Fun rock 'n roll high school Fun Fun ooohh baby Fun Fun ooohh baby


e-------------------------[----------------------(2X)----------------------]
B-------------------------[------------------------------------------------]
G-5-5-5-5-5---------------[-5---5------------------------------------------]
D-5-5-5-5-5-7-7-7-7-7-7---[-5---5------7----7-----3--3--3--3---5-5-5-5-5-5-]
A-3-3-3-3-3-7-7-7-7-7-7---[-3---3------7----7-----3--3--3--3---5-5-5-5-5-5-]
E-----------5-5-5-5-5-5---[------------5----5-----1--1--1--1---3-3-3-3-3-3-]
Fun Fuuuuun Fun Fun rock rock rock rock rock 'n roll high school

KEY change from C to D

e---------------------------------------------------------------------------|
B---------------------------------------------------------------------------|
D---------------------------------------------------------------------------|
G-7----7--------------------------------------------------------------------|
D-7----7-----9----9------5-5-5-5-5-5--7-7-7-7-7-7-7-------------------------|
A-5----5-----9----9------5-5-5-5-5-5--7-7-7-7-7-7-7-------------------------|
E------------7----7------3-3-3-3-3-3--5-5-5-5-5-5-5-------------------------|
rock rock rock rock rock 'n roll high school

Drum intro


e---------------------------------------------------------------------------|
B---------------------------------------------------------------------------|
G-7-7-7-7-7-7-7-7-7-7-7-7-7-7-7-7-7-7-7-7-7-7-7-7-7-7-7-7-7-7-7-7-----------|
D-7-7-7-7-7-7-7-7-7-7-7-7-7-7-7-7-7-7-7-7-7-7-7-7-7-7-7-7-7-7-7-7-----------|
A-5-5-5-5-5-5-5-5-5-5-5-5-5-5-5-5-5-5-5-5-5-5-5-5-5-5-5-5-5-5-5-5-----------|
E---------------------------------------------------------------------------|
Well I don't care about history Rock Rock rock 'n roll high school

e---------------------------------------------------------------------------|
B---------------------------------------------------------------------------|
G-------------------------------------7-7-7-7-7-7-7-7-7-7-7-7-7-7-7-7-7-----|
D-5-5-5-5-5-5-5-5-5-5-5-5-5-5-5-5-5---7-7-7-7-7-7-7-7-7-7-7-7-7-7-7-7-7-----|
A-5-5-5-5-5-5-5-5-5-5-5-5-5-5-5-5-5---5-5-5-5-5-5-5-5-5-5-5-5-5-5-5-5-5-----|
E-3-3-3-3-3-3-3-3-3-3-3-3-3-3-3-3-3-----------------------------------------|
Cuz that's not where I wanna be Rock Rock rock 'n roll high school


e---------------------------------------------------------------------------|
B---------------------------------------------------------------------------|
G-4-4-4-4-4-4-------------------4-4-4-4-4-4---------------------------------|
D-4-4-4-4-4-4--5-5-5-5-5-5-5-5--4-4-4-4-4-4--5-5-5-5-5-5-5-5----------------|
A-2-2-2-2-2-2--5-5-5-5-5-5-5-5--2-2-2-2-2-2--5-5-5-5-5-5-5-5----------------|
E--------------3-3-3-3-3-3-3-3---------------3-3-3-3-3-3-3-3----------------|
I just wanna have some kicks I just wanna get some chicks


e---------------------------------------------------------------------------|
B---------------------------------------------------------------------------|
G-7----7------------------------------------------------7-7-7-7-7-7-7-7-7-7-|
D-7----7-----9----9-----5-5-5-5-5-5--7-7-7-7-7-7--------7-7-7-7-7-7-7-7-7-7-|
A-5----5-----9----9-----5-5-5-5-5-5--7-7-7-7-7-7--(2X)--4/5-5-5-5-4/5-5-5-5-|
E------------7----7-----3-3-3-3-3-3--5-5-5-5-5-5----------------------------|
rock rock rock rock rock 'n roll high school

e---------------------------------------------------------------------------|
B---------------------------------------------------------------------------|
G------------------------------------7-7-7-7-7-7-7-7-7-7-7-7-7-7-7-7-7------|
D-7-7-7-7-7-7-7-7-7-7-7-7-7-7-7-7-7--7-7-7-7-7-7-7-7-7-7-7-7-7-7-7-7-7------|
A-7-7-7-7-7-7-7-7-7-7-7-7-7-7-7-7-7--5-5-5-5-5-5-5-5-5-5-5-5-5-5-5-5-5------|
E-5-5-5-5-5-5-5-5-5-5-5-5-5-5-5-5-5-----------------------------------------|
Fun Fun rock 'n roll high school Fun Fun rock 'n roll high school

e---------------------------------------------------------------------------|
B---------------------------------------------------------------------------|
G---------------------------------------------------------------------------|
D-7-7-7-7-7-7-7-7-7-7-7-7-7-7-7-7-7-7---------------------------------------|
A-7-7-7-7-7-7-7-7-7-7-7-7-7-7-7-7-7-7---------------------------------------|
E-5-5-5-5-5-5-5-5-5-5-5-5-5-5-5-5-5-5---------------------------------------|
Fun Fun rock 'n roll high school

e---------------------------------------------------------------------------|
B---------------------------------------------------------------------------|
G-7-7-7-7-7-7-7-7-7-7------------------------7-7-7-7-7----------------------|
D-7-7-7-7-7-7-7-7-7-7--5-5-5-5-5-5-5-5-5-5---7-7-7-7-7-9-9-9-9-9-9----------|
A-5-5-5-5-5-5-5-5-5-5--5-5-5-5-5-5-5-5-5-5---5-5-5-5-5-9-9-9-9-9-9----------|
E----------------------3-3-3-3-3-3-3-3-3-3-------------7-7-7-7-7-7----------|
Fun Fun ohhh baby Fun Fun ohhh baby Fun Fuunnun Fun Fun


e---------------------------------------------------------------------------|
B-----------------------------------------------------------------^^^^------|
G-7----7------------------------------------------------------7----7*-------|
D-7----7------9----9-----5---5---5------7-7-7-7-7-7-----------7-------------|
A-5----5------9----9-----5---5---5------7-7-7-7-7-7-(4X)------5-------------|
E-------------7----7-----3---3---3------5-5-5-5-5-5-------------------------|
rock rock rock rock rock 'n roll high school






Post je objavljen 28.04.2008. u 21:26 sati.