Pregled posta

Adresa bloga: http://blog.dnevnik.hr/panonskisatan

Marketing

Oprostite na zakašnju i svemu, pa počnimo:

Odrežite sise:

1---------------------------
2---------------------------
3---------------------------
4---------------1----------
5----4-3-1--1-------------
6------------------3-4-----

Verse i Chorus (isti su)

1----------------------------------------------------
2----------------------------------------------------
3---------------------------------------------------
4-----8-8-8-8--6-6-6-6-|-4-4-4-4-4-4-4-4-----
5-----8-8-8-8--6-6-6-6-|-4-4-4-4-4-4-4-4-----
6-----6-6-6-6--4-4-4-4-|-2-2-2-2-2-2-2-2-----

^ x3 ^ x1

Solaža- jednostavno pitch na 19. polju druge žice!
______________________________________________________________________________________________

Sada da ispravim neke greške što na mom blogu i nešto što ljudi mješaju:

Pjesma: Kiss my cock ne ide kao što će mnogi reći i razumit: you are kissing my cock, nego: You want eat, eat my cock
evo vam i dokaz:
Image Hosted by ImageShack.us
______________________________________________________________________________________________

Jednom prilikom frend mi je rekao da satanov "logo" je i vrag. Ja sam to znao al mislio sam da je to nepotrebno za reći. No to mu je i prvobitna ideja bila, no da nedođe do zabuda da je to samo kurac, objavit ću sliku gdje se vide rogovi na "glaviću", a ono "kurac i jaja" su oći i nos pa evo i slike gdje se prikazuju ti rogovi:Image Hosted by ImageShack.us

-Ispravka na mom blogu-
U postu "malo" gdje sam pisao o smrti nedavno sam pronašao grešku, a to je da mu leš nije nađen. To je netočno, i ispravio sam.
______________________________________________________________________________________________

Danas na dan 17. Ožujka svira Pogreb X u mini teatru, upad za člano 10kn oni koji nisu učlanjeni 20kn, odsvirat će i pjesmu "Organi".

Nadodao sam u box još spotova, zahvaljujem Žiku na uploadiranju.

Nepreporučavam gledanje ovog bloga u mozzili nego u običnom exploreru

Post je objavljen 17.03.2007. u 14:54 sati.