AC(grom)DC je HARD ROCK BLUES NA DISTORZIJI I TOČKA p.s. nisam lud zam šta pričam :-/

01.11.2006., srijeda

finfilator

The jack1

-----------|---------------|-----------|-------------------|
B-----------|---------------|-----------|-------------------|
G------9-12-|------1211-9~-|------9-12-|----12-------------|
D-9-11------|-9-11----------|-9-11------|-13----13-1211-9~-|
A-----------|---------------|-----------|-------------------|
E-----------|---------------|-----------|-------------------|

E-----------------------------------------------------------|
B-------12--15------12------------12------------------------|
G---15----------14------14p12h14------14p12------14-12~----|
D--------------------------------------------14-------------|
A-----------------------------------------------------------|
E-----------------------------------------------------------|

E-------------|---------------------------------------------------------|
B-------------|-----3p0-------------------------------------------------|
G-4---4-4-4-4-|--4------2p0------0--------------------------------------|
D-------------|-------------2p0----0--2p0-2p0-2p0-2p0--2p0-2p0-2p0-2p0--|
A-------------|---------------------------------------------------------|
E-------------|---------------------------------------------------------|

E-7-------|-------12----12-12~-|-----------|----17-17-15-12-14-15-14-12-|
B----8----|-12-15----12--------|-15-12-15~-|-12-------------------------|
G------9~-|--------------------|-----------|----------------------------|
D---------|--------------------|-----------|----------------------------|
A---------|--------------------|-----------|----------------------------|
E---------|--------------------|-----------|----------------------------|

E--------------|--------------------------------------------------------|
B-12h15-12-12~-|----12----12----12-15-----------------12h15p12----------|
G--------------|-14----14----14-------15p14p12-----14----------15p14p12-|
D--------------|-------------------------------14-----------------------|
A--------------|--------------------------------------------------------|
E--------------|--------------------------------------------------------|

E------------------|------------|
B------------------|---15--15---|
G-----14--12--9--|---16--16---|
D--14--------------|------------|
A------------------|------------|
E------------------|------------|

The jack 2

|--------------------------------------------------------|
B|--------------------------------------------------------|
G|--------------------------------------------------------| Repeat over
D|--2--2---4--5----2--2--4--5-----------------------------| The chorus and refrain
A|--0--0---0--0----0--0--0--0----2--2--4--5----2--2--4--5-|
E|-------------------------------0--0--0--0----0--0--0--0-|

SOLO:
e|----------------------------------------------------------------------------|
b|----------------------------------------------------------------------12----|
g|--------9--11-(13)----------11-13-11-9---------9--11-13---11-12----13-------|
D|-9--11---------------9--11---------------9--11------------------------------|
A|----------------------------------------------------------------------------|
E|----------------------------------------------------------------------------|

e|----------------------------------------------------------------------------|
b|-------------------------------12---15--------------------------------------|
g|-13--12--13--11-9-----14-16-----------14-16-14-12-14-14-16-14-12----14---12|
D|------------------------------------------------------------------14----14--
A|----------------------------------------------------------------------------|
E|----------------------------------------------------------------------------|

e|----------------------------------------------------------------------------|
b|-------------------------------3-0-------------------------10-12--8---------|
g|-2-4-----2-4-2-4-2-4-2-4---2-0-----2-0-----0------------------------9-------|
D|---------------------------------------2-0---0---2-----0--------------------|
A|----------------------------------------------------------------------------|
E|----------------------------------------------------------------------------|

e|-------12----------------------------------------------15-17-15-17-15-12-14-|
b|-12-15----12--15--17--17---17-15-12-14-15------14--12-----------------------|
g|----------------------------------------------------------------------------|
D|----------------------------------------------------------------------------|
A|----------------------------------------------------------------------------|
E|----------------------------------------------------------------------------|

e|15-17-15-14-12----12----------------------------------------------------12--|
b|---------------15----15-12----12----------12-------------------------12-----|
g|---------------------------14----14-14-16----15-12-14-12----12-14-16--------|
D|---------------------------------------------------------14-----------------|
A|----------------------------------------------------------------------------|
E|----------------------------------------------------------------------------|

e|----------------------------------------------------|
b|15-12-------------------------------------15----15--|
g|------15-14-12----14----12------9----14-16-14-16--|
D|---------------14----14---------------------------|
A|----------------------------------------------------|
E|----------------------------------------------------|


You shock me all night

--3---------5-----|-3-3---3-2---------|-------------------|-------------------
--3---------3-----|-----3-----3-------|--3----------------|----------3--------
--0---------0-----|--------------0----|--2-----------2----|----------2--------
--0---------------|-------------------|--0---------3-0----|---3-h-4------3-0--
------------------|-------------------|-------------------|-------------------
------------------|-------------------|-------------------|-------------------
Intro:
--3---------5-----|-3-3---3-2---------|-------------------|-------------------
--3---------3-----|-----3-----3-------|--3----------------|-------------------
--0---------0-----|--------------0----|--2----------------|-------------------
--0---------------|-------------------|--0----------------|-------------------
------------------|-------------------|-------------------|-------------------
------------------|-------------------|-------------------|-------------------
intro cont...
------------------|-------------------|-------------------|-------------------
--3----------1----|-1-------1-------3-|---------------3---|--3---3---3----3---
--0----------0----|-0---0---0---0---2-|---------------0---|--0---2---0----2---
--0----------2----|-2---0---2---0---0-|---------------0---|--0---0---0----0---
-------------3----|-3-------3---------|-------------------|-------------------
--3---------------|-----3-------3-----|---------------3---|--3-------3--------
VERSE---play 5 times
------------------|-------------------|---------------------------------------
--3----3-3-3--3---|-3--3----3-3--3--3-|---------------------------------------
--2----2-2-2--0---|-0--2----0-0--2--0-|---------------------------------------
--0----0-0-0--0---|-0--0----0-0--0--0-|---------------------------------------
-------0-0-0------|----0---------0----|---------------------------------------
--------------3---|-3-------3-3-----3-|---------------------------------------
part right before chorus, played right after verse on the fifth time
-----3------------|-----3--------3----|-----2-------------|----3---------3----
-----3------------|-----3--------3----|---3-3-------------|----3---------3----
-----0------------|--0--0-----0-------|-2---2-------------|-0----------0----3-
-----0------------|----------------0--|-----0-------------|-----------------0-
-----------0-2-3--|--------2----------|-----------0-2-3---|--------2--------0-
-3---3------------|-------------------|-------------------|-------------------
CHORUS: Play twice first time, play three times second time
-----3------------|-----3--------3-2--|-2-2--2-2-2-3------|-----3---3---------
-----3------------|-----3--------3-3--|-3-3--3-3-3-3------|-----3---3------3--
-----0------------|--0--------0----2--|-2-2--2-2-2-0------|-----0---0---0--2--
-----0------------|----------------0--|-0-0--0-0-0-0------|-----0---0---0--0--
-----------0-2-3--|--------2----------|-------------------|----------------0--
-3---3------------|-------------------|-------------------|--3--3---3---3-----
play this next part right before the solo
------------------|-------------------|-------------------|-------------------
--3-3--3-3-3-3----|-3-3-3-3-3-3-------|-------------------|-------------------
--2-2--2-2-2-2----|-2-2-2-2-2-2-------|-------------------|-------------------
--0-0--0-0-0-0----|-0-0-0-0-0-0-------|-------------------|-------------------
--0-0--0-0-0-0----|-0-0-0-0-0-0-------|-------------------|-------------------
------------------|-------------------|-------------------|-------------------
SOLO:
------------------|-3-----------------|-------------------|-------------------
------------------|---3--6------------|-------------------|-------------------
-5b7-vvvvv--------|--------5b7r5--3---|-------------------|--------3b4--------
------------------|-------------------|---5vvv-5-3--------|-------------5-----
------------------|-----------------5-|-5-----------5---3-|--1------------5---
------------------|-------------------|-------------------|-----3-------------
listen for timing
--------------------------------------|---------------------------------------
----------------------------6---6-----|-----------8-8--------8--10b12---------
-----------3b4-------/7---------------|------7/9---------9--------------------
-5vvvvv-------------------------------|---------------------------------------
--------------------------------------|---------------------------------------
--------------------------------------|---------------------------------------
hold bend
---10---------------------------------|---------------------------------------
--------r10------8------8------11b13--|---11/12----8--------8-------18bvvvvvv-
--------------------------------------|-----------------9---------------------
--------------------------------------|---------------------------------------
--------------------------------------|---------------------------------------
--------------------------------------|---------------------------------------
played much faster than it looks here, left space for easy reading
---------------15---------------------|---------------------------------------
-vvvvvv-----------------15-----18-----|-----------------------17--------------
--------------------------------------|-17b20r17------15------17---15--17b20--
--------------------------------------|-------------------17------------------
--------------------------------------|---------------------------------------
--------------------------------------|---------------------------------------
--------------------------------------|------------------------------18b------
--18-------------18-------------------|--17--15------15------15--------------
-------17b20----------b17r---15-------|--17--15------15----------------------
----------------------------------17--|----------17---------------------------
--------------------------------------|---------------------------------------
--------------------------------------|---------------------------------------
release bend bend, strike, release
------19--------b17r----------15------|--17------15-----------------15--------
--------------------------------------|------17------18b--------15------18----
--------------------------------------|---------------------------------------
--------------------------------------|---------------------------------------
--------------------------------------|---------------------------------------
--------------------------------------|---------------------------------------
-------------------------------------|-15------15--17b17r-----15-------------
-----------------------------/17-----|-----17---------------------------------
-17b17r------15---17/19vvv-----------|----------------------------------------
-------------------------------------|----------------------------------------
-------------------------------------|----------------------------------------
-------------------------------------|----------------------------------------










Cant stop rock


E|-----------------|
B|-----------------|
G|-2-----7--5--2-5-|
D|-2--5--7--5--2-5-|
A|-0--5--5--3--0-3-|
E|----3------------|
This is where i'm not quite sure. I have many different versions
chorus.
Here's the one that I use and I think
it sounds the best.
E|------------------------------|
B|--------------------5-4-3-3---|
G|-7--7---7--7--7--7------------|
D|-0--0---0--0--0--0------------|
A|-5--5---5--5--3--3------------|
E|------------------------------|
Here's an easier version. However, I don't
recommend you use it. You should try the more
accurate on on the top:
E|------------------------------|
B|--------------------5-4-3-3---|
G|-7--7---7--7--5--5------------|
D|-0--0---0--0--0--0------------|
A|-5--5---5--5--3--3------------|
E|------------------------------|
Solo: (sent to me by someone.... not to sure on the accuracy,
haven't played it yet. Don't know the song well enough)
|-----------15----15h17(18)--17(18)--|
|-15(17)~~--15(17)-----------------------|
|----------------------------------------|
|----------------------------------------|
|----------------------------------------|
|----------------------------------------|
|--------------------------------------------------------|
|-------5(6)----5(6)---5(6)---8(10)-(10)-5-8---5---------|
|-------5(6)----5(6)---5(6)------------------7---5---0---|
|-7-6-5------7-------7-----------------------------7-----|
|-----------------------------------------------------7/-|
|--------------------------------------------------------|

|--------------------------------------------------------|
|-------------------------------10--8-----5--------------|
|--5---7(9)~~-7(9)-7(9)-7(9)-----9--9--5--5--------------|
|----7-----------------------------------------7----7~~--|
|------------------------------------------------7-------|
|--------------------------------------------------------|

|------------------12----12-12-----------15----15-15----15--15----15-------|
|-8(10)----5(6)/---13(15)---13(15)-------15(17)---15(17)----15(17)--p13-15-|
|------5---5(6)/------------------14-12/---------------------------------14|
|--------7-----------------------------------------------------------------|
|--------------------------------------------------------------------------|
|--------------------------------------------------------------------------|
|-16(17)-15---16(17)-15---16(17)-15---16(17)-15---------------------|
|-------------------------------------------------13---15(17)-15----|
|-----------------------------------------------14--14----------14--|
|-------------------------------------------------------------------|
|-------------------------------------------------------------------|
|-------------------------------------------------------------------|
|-------15--------15------------15---15---15---|
|-15(17)---15(17)------15(17)--(17)-(17)-(17)--|
|----------------------------------------------|
|----------------------------------------------|
|----------------------------------------------|
|----------------------------------------------|

- 13:03 - Komentari (4) - Isprintaj - #

<< Arhiva >>

Creative Commons License
Ovaj blog je ustupljen pod Creative Commons licencom Imenovanje-Dijeli pod istim uvjetima.

< studeni, 2006  
P U S Č P S N
    1 2 3 4 5
6 7 8 9 10 11 12
13 14 15 16 17 18 19
20 21 22 23 24 25 26
27 28 29 30      


Dnevnik.hr
Gol.hr
Zadovoljna.hr
OYO.hr
NovaTV.hr
DomaTV.hr
Mojamini.tv

ACDC

Vocals- Bon Scott 1974-1979
Vocals- Brian Johnson 1980-present
Lead Guitar- Angus Young 1973-present
Rhythm Guitar- Malcolm Young 1973-present
Bass- Cliff Williams 1977-present
Drums- Phil Rudd 1974-1983, 1994-present



Previous Members:
Vocals- Dave Evans 1973-1974
Bass- Mark Evans 1974-1977
Drums- Chris Slade 1990-1994
Drums- Simon Wright 1983-1989

Pages i ostalo



http://
www.grga-club.com

majl: marinhuligan@hotmail.com

vjever_ri@net.hr

glasiusgm@yahoo.com

ajsi: 333-343-212

MUCIFER od pogana i glupih ljudi radi MAČIĆE koji su neuhranjeni i nemaju dlake , buljave oči i jako su agresivni! probajte predočit! -pazite se jer vam mačići vole krf mladih djevica- Zato se spasiti i razdjevičite! Može i kod mene!

KABLODIR je zloduh koji stvara monade kod svirke, krade kablove i skriva se u sjeni! Ako želite svoje kablove, morate ga ubiti, rasčetvoriti sa tupim nožem!

VJEVER drkadžija,samo kada mu vjeverica neda ..... , on kolje ljude radi zabave!

PAPA član sotonse organizacije,i neonacista! "voli" malu djecu!

Cool pikčrs










Blog.hr koristi kolačiće za pružanje boljeg korisničkog iskustva. Postavke kolačića mogu se kontrolirati i konfigurirati u vašem web pregledniku. Više o kolačićima možete pročitati ovdje. Nastavkom pregleda web stranice Blog.hr slažete se s korištenjem kolačića. Za nastavak pregleda i korištenja web stranice Blog.hr kliknite na gumb "Slažem se".Slažem se